ISO-10303-21;
HEADER;
FILE_DESCRIPTION (( 'STEP AP203' ),
    '1' );
FILE_NAME ('T24000.STEP',
    '2018-07-17T08:47:51',
    ( '' ),
    ( '' ),
    'SwSTEP 2.0',
    'SolidWorks 2016',
    '' );
FILE_SCHEMA (( 'CONFIG_CONTROL_DESIGN' ));
ENDSEC;

DATA;
#1 = DIRECTION ( 'NONE',  ( -0.0000000000000000000, -0.0000000000000000000, -1.000000000000000000 ) ) ;
#2 = CARTESIAN_POINT ( 'NONE',  ( 0.0000000000000000000, 0.0000000000000000000, 3000.000000000000000 ) ) ;
#3 = ORIENTED_EDGE ( 'NONE', *, *, #54, .F. ) ;
#4 = ADVANCED_FACE ( 'NONE', ( #226 ), #76, .F. ) ;
#5 = DIRECTION ( 'NONE',  ( 0.0000000000000000000, 0.0000000000000000000, 1.000000000000000000 ) ) ;
#6 = CC_DESIGN_APPROVAL ( #146, ( #213 ) ) ;
#7 = FACE_OUTER_BOUND ( 'NONE', #34, .T. ) ;
#8 = PERSON_AND_ORGANIZATION ( #114, #38 ) ;
#9 = EDGE_CURVE ( 'NONE', #219, #106, #52, .T. ) ;
#10 = COORDINATED_UNIVERSAL_TIME_OFFSET ( 0, 0, .AHEAD. ) ;
#11 = PERSON_AND_ORGANIZATION_ROLE ( 'classification_officer' ) ;
#12 = VECTOR ( 'NONE', #20, 1000.000000000000000 ) ;
#13 = DIRECTION ( 'NONE',  ( 0.0000000000000000000, 0.0000000000000000000, 1.000000000000000000 ) ) ;
#14 = ORIENTED_EDGE ( 'NONE', *, *, #9, .F. ) ;
#15 = CALENDAR_DATE ( 2018, 17, 7 ) ;
#16 = CIRCLE ( 'NONE', #77, 24.14999999999999900 ) ;
#17 = PERSON_AND_ORGANIZATION ( #114, #38 ) ;
#18 = EDGE_CURVE ( 'NONE', #66, #165, #16, .T. ) ;
#19 = DATE_AND_TIME ( #124, #180 ) ;
#20 = DIRECTION ( 'NONE',  ( -0.0000000000000000000, -0.0000000000000000000, -1.000000000000000000 ) ) ;
#21 = CARTESIAN_POINT ( 'NONE',  ( 24.14999999999999900, 2.957522019940857900E-015, 3000.000000000000000 ) ) ;
#22 = FACE_BOUND ( 'NONE', #59, .T. ) ;
#23 = CALENDAR_DATE ( 2018, 17, 7 ) ;
#24 = CC_DESIGN_PERSON_AND_ORGANIZATION_ASSIGNMENT ( #246, #98, ( #127 ) ) ;
#25 = ORIENTED_EDGE ( 'NONE', *, *, #9, .T. ) ;
#26 = PERSON_AND_ORGANIZATION ( #114, #38 ) ;
#27 = AXIS2_PLACEMENT_3D ( 'NONE', #239, #96, #79 ) ;
#28 = DIRECTION ( 'NONE',  ( -0.0000000000000000000, -0.0000000000000000000, -1.000000000000000000 ) ) ;
#29 = ORIENTED_EDGE ( 'NONE', *, *, #230, .T. ) ;
#30 = COORDINATED_UNIVERSAL_TIME_OFFSET ( 0, 0, .AHEAD. ) ;
#31 = DIRECTION ( 'NONE',  ( 1.000000000000000000, 0.0000000000000000000, -0.0000000000000000000 ) ) ;
#32 = CIRCLE ( 'NONE', #145, 19.89999999999999900 ) ;
#33 = EDGE_LOOP ( 'NONE', ( #25, #240 ) ) ;
#34 = EDGE_LOOP ( 'NONE', ( #179, #14, #248, #37 ) ) ;
#35 = PRODUCT_DEFINITION_SHAPE ( 'NONE', 'NONE',  #213 ) ;
#36 = FACE_OUTER_BOUND ( 'NONE', #33, .T. ) ;
#37 = ORIENTED_EDGE ( 'NONE', *, *, #18, .T. ) ;
#38 = ORGANIZATION ( 'UNSPECIFIED', 'UNSPECIFIED', '' ) ;
#39 = DIRECTION ( 'NONE',  ( -0.0000000000000000000, -0.0000000000000000000, -1.000000000000000000 ) ) ;
#40 = DIRECTION ( 'NONE',  ( -1.000000000000000000, 0.0000000000000000000, 0.0000000000000000000 ) ) ;
#41 = CC_DESIGN_DATE_AND_TIME_ASSIGNMENT ( #19, #241, ( #237 ) ) ;
#42 = VECTOR ( 'NONE', #122, 1000.000000000000000 ) ;
#43 = CLOSED_SHELL ( 'NONE', ( #4, #93, #152, #200, #157, #119 ) ) ;
#44 = CARTESIAN_POINT ( 'NONE',  ( 0.0000000000000000000, 0.0000000000000000000, -3000.000000000000000 ) ) ;
#45 = CARTESIAN_POINT ( 'NONE',  ( 19.89999999999999900, 2.437047130303232800E-015, -3000.000000000000000 ) ) ;
#46 = ORIENTED_EDGE ( 'NONE', *, *, #130, .F. ) ;
#47 = APPROVAL_DATE_TIME ( #155, #121 ) ;
#48 = APPROVAL_ROLE ( '' ) ;
#49 = CARTESIAN_POINT ( 'NONE',  ( 24.14999999999999900, 2.957522019940857900E-015, 3000.000000000000000 ) ) ;
#50 = ORIENTED_EDGE ( 'NONE', *, *, #164, .F. ) ;
#51 = SHAPE_DEFINITION_REPRESENTATION ( #35, #68 ) ;
#52 = CIRCLE ( 'NONE', #156, 24.14999999999999900 ) ;
#53 = LOCAL_TIME ( 9, 47, 51.00000000000000000, #10 ) ;
#54 = EDGE_CURVE ( 'NONE', #219, #66, #223, .T. ) ;
#55 = VECTOR ( 'NONE', #144, 1000.000000000000000 ) ;
#56 = CARTESIAN_POINT ( 'NONE',  ( 24.14999999999999900, 2.957522019940857900E-015, -3000.000000000000000 ) ) ;
#57 = DIRECTION ( 'NONE',  ( -1.000000000000000000, 0.0000000000000000000, 0.0000000000000000000 ) ) ;
#58 = CARTESIAN_POINT ( 'NONE',  ( -19.89999999999999900, 0.0000000000000000000, 3000.000000000000000 ) ) ;
#59 = EDGE_LOOP ( 'NONE', ( #46, #82 ) ) ;
#60 =( NAMED_UNIT ( * ) SI_UNIT ( $, .STERADIAN. ) SOLID_ANGLE_UNIT ( ) );
#61 = PLANE ( 'NONE',  #220 ) ;
#62 = SECURITY_CLASSIFICATION_LEVEL ( 'unclassified' ) ;
#63 = AXIS2_PLACEMENT_3D ( 'NONE', #84, #13, #210 ) ;
#64 = DIRECTION ( 'NONE',  ( 0.0000000000000000000, 0.0000000000000000000, 1.000000000000000000 ) ) ;
#65 = EDGE_CURVE ( 'NONE', #133, #192, #160, .T. ) ;
#66 = VERTEX_POINT ( 'NONE', #217 ) ;
#67 = LOCAL_TIME ( 9, 47, 51.00000000000000000, #30 ) ;
#68 = ADVANCED_BREP_SHAPE_REPRESENTATION ( 'T24000', ( #108, #70 ), #74 ) ;
#69 = ORIENTED_EDGE ( 'NONE', *, *, #65, .F. ) ;
#70 = AXIS2_PLACEMENT_3D ( 'NONE', #206, #105, #205 ) ;
#71 = EDGE_LOOP ( 'NONE', ( #73, #183 ) ) ;
#72 = DIRECTION ( 'NONE',  ( 0.0000000000000000000, 0.0000000000000000000, 1.000000000000000000 ) ) ;
#73 = ORIENTED_EDGE ( 'NONE', *, *, #18, .F. ) ;
#74 =( GEOMETRIC_REPRESENTATION_CONTEXT ( 3 ) GLOBAL_UNCERTAINTY_ASSIGNED_CONTEXT ( ( #125 ) ) GLOBAL_UNIT_ASSIGNED_CONTEXT ( ( #167, #189, #60 ) ) REPRESENTATION_CONTEXT ( 'NONE', 'WORKASPACE' ) );
#75 = DIRECTION ( 'NONE',  ( 0.0000000000000000000, 0.0000000000000000000, 1.000000000000000000 ) ) ;
#76 = CYLINDRICAL_SURFACE ( 'NONE', #132, 19.89999999999999900 ) ;
#77 = AXIS2_PLACEMENT_3D ( 'NONE', #181, #197, #137 ) ;
#78 = ORIENTED_EDGE ( 'NONE', *, *, #107, .T. ) ;
#79 = DIRECTION ( 'NONE',  ( 1.000000000000000000, 0.0000000000000000000, -0.0000000000000000000 ) ) ;
#80 = DIRECTION ( 'NONE',  ( 1.000000000000000000, 0.0000000000000000000, 0.0000000000000000000 ) ) ;
#81 = APPROVAL_ROLE ( '' ) ;
#82 = ORIENTED_EDGE ( 'NONE', *, *, #154, .F. ) ;
#83 = APPLICATION_PROTOCOL_DEFINITION ( 'international standard', 'config_control_design', 1994, #126 ) ;
#84 = CARTESIAN_POINT ( 'NONE',  ( 0.0000000000000000000, 0.0000000000000000000, -3000.000000000000000 ) ) ;
#85 = CIRCLE ( 'NONE', #63, 24.14999999999999900 ) ;
#86 = DESIGN_CONTEXT ( 'detailed design', #126, 'design' ) ;
#87 = CARTESIAN_POINT ( 'NONE',  ( 19.89999999999999900, 2.437047130303232800E-015, 3000.000000000000000 ) ) ;
#88 = ORIENTED_EDGE ( 'NONE', *, *, #172, .T. ) ;
#89 = CARTESIAN_POINT ( 'NONE',  ( 0.0000000000000000000, 0.0000000000000000000, -3000.000000000000000 ) ) ;
#90 = ORIENTED_EDGE ( 'NONE', *, *, #107, .F. ) ;
#91 = CARTESIAN_POINT ( 'NONE',  ( 0.0000000000000000000, 0.0000000000000000000, 3000.000000000000000 ) ) ;
#92 = PRODUCT_RELATED_PRODUCT_CATEGORY ( 'detail', '', ( #201 ) ) ;
#93 = ADVANCED_FACE ( 'NONE', ( #95 ), #101, .T. ) ;
#94 = DIRECTION ( 'NONE',  ( -0.0000000000000000000, -0.0000000000000000000, -1.000000000000000000 ) ) ;
#95 = FACE_OUTER_BOUND ( 'NONE', #211, .T. ) ;
#96 = DIRECTION ( 'NONE',  ( 0.0000000000000000000, 0.0000000000000000000, 1.000000000000000000 ) ) ;
#97 = DIRECTION ( 'NONE',  ( 1.000000000000000000, 0.0000000000000000000, 0.0000000000000000000 ) ) ;
#98 = PERSON_AND_ORGANIZATION_ROLE ( 'creator' ) ;
#99 = AXIS2_PLACEMENT_3D ( 'NONE', #139, #75, #97 ) ;
#100 = DATE_TIME_ROLE ( 'creation_date' ) ;
#101 = CYLINDRICAL_SURFACE ( 'NONE', #174, 24.14999999999999900 ) ;
#102 = APPROVAL_DATE_TIME ( #161, #146 ) ;
#103 = CC_DESIGN_PERSON_AND_ORGANIZATION_ASSIGNMENT ( #8, #207, ( #213 ) ) ;
#104 = CARTESIAN_POINT ( 'NONE',  ( -19.89999999999999900, 0.0000000000000000000, -3000.000000000000000 ) ) ;
#105 = DIRECTION ( 'NONE',  ( 0.0000000000000000000, 0.0000000000000000000, 1.000000000000000000 ) ) ;
#106 = VERTEX_POINT ( 'NONE', #21 ) ;
#107 = EDGE_CURVE ( 'NONE', #192, #133, #218, .T. ) ;
#108 = MANIFOLD_SOLID_BREP ( 'Extrude-Thin1', #43 ) ;
#109 = DIRECTION ( 'NONE',  ( 1.000000000000000000, 0.0000000000000000000, 0.0000000000000000000 ) ) ;
#110 = EDGE_LOOP ( 'NONE', ( #78, #229 ) ) ;
#111 = LOCAL_TIME ( 9, 47, 51.00000000000000000, #234 ) ;
#112 = CARTESIAN_POINT ( 'NONE',  ( -24.14999999999999900, 0.0000000000000000000, 3000.000000000000000 ) ) ;
#113 = AXIS2_PLACEMENT_3D ( 'NONE', #44, #204, #186 ) ;
#114 = PERSON ( 'UNSPECIFIED', 'UNSPECIFIED', 'UNSPECIFIED', ('UNSPECIFIED'), ('UNSPECIFIED'), ('UNSPECIFIED') ) ;
#115 = DIRECTION ( 'NONE',  ( -1.000000000000000000, 0.0000000000000000000, 0.0000000000000000000 ) ) ;
#116 = EDGE_CURVE ( 'NONE', #106, #219, #238, .T. ) ;
#117 = DIRECTION ( 'NONE',  ( 1.000000000000000000, 0.0000000000000000000, 0.0000000000000000000 ) ) ;
#118 = LINE ( 'NONE', #236, #42 ) ;
#119 = ADVANCED_FACE ( 'NONE', ( #136 ), #208, .F. ) ;
#120 = CARTESIAN_POINT ( 'NONE',  ( 0.0000000000000000000, 0.0000000000000000000, 3000.000000000000000 ) ) ;
#121 = APPROVAL ( #221, 'UNSPECIFIED' ) ;
#122 = DIRECTION ( 'NONE',  ( -0.0000000000000000000, -0.0000000000000000000, -1.000000000000000000 ) ) ;
#123 = ORIENTED_EDGE ( 'NONE', *, *, #178, .T. ) ;
#124 = CALENDAR_DATE ( 2018, 17, 7 ) ;
#125 = UNCERTAINTY_MEASURE_WITH_UNIT (LENGTH_MEASURE( 1.000000000000000100E-005 ), #167, 'distance_accuracy_value', 'NONE');
#126 = APPLICATION_CONTEXT ( 'configuration controlled 3d designs of mechanical parts and assemblies' ) ;
#127 = PRODUCT_DEFINITION_FORMATION_WITH_SPECIFIED_SOURCE ( 'ANY', '', #201, .NOT_KNOWN. ) ;
#128 = VERTEX_POINT ( 'NONE', #58 ) ;
#129 = MECHANICAL_CONTEXT ( 'NONE', #222, 'mechanical' ) ;
#130 = EDGE_CURVE ( 'NONE', #128, #196, #32, .T. ) ;
#131 = APPROVAL_PERSON_ORGANIZATION ( #212, #121, #171 ) ;
#132 = AXIS2_PLACEMENT_3D ( 'NONE', #2, #39, #177 ) ;
#133 = VERTEX_POINT ( 'NONE', #45 ) ;
#134 = APPROVAL_DATE_TIME ( #194, #191 ) ;
#135 = AXIS2_PLACEMENT_3D ( 'NONE', #89, #72, #117 ) ;
#136 = FACE_OUTER_BOUND ( 'NONE', #202, .T. ) ;
#137 = DIRECTION ( 'NONE',  ( 1.000000000000000000, 0.0000000000000000000, 0.0000000000000000000 ) ) ;
#138 = ORIENTED_EDGE ( 'NONE', *, *, #116, .F. ) ;
#139 = CARTESIAN_POINT ( 'NONE',  ( 0.0000000000000000000, 0.0000000000000000000, 3000.000000000000000 ) ) ;
#140 = PLANE ( 'NONE',  #27 ) ;
#141 = CARTESIAN_POINT ( 'NONE',  ( -24.14999999999999900, 0.0000000000000000000, 3000.000000000000000 ) ) ;
#142 = ORIENTED_EDGE ( 'NONE', *, *, #164, .T. ) ;
#143 = PERSON_AND_ORGANIZATION ( #114, #38 ) ;
#144 = DIRECTION ( 'NONE',  ( -0.0000000000000000000, -0.0000000000000000000, -1.000000000000000000 ) ) ;
#145 = AXIS2_PLACEMENT_3D ( 'NONE', #185, #5, #235 ) ;
#146 = APPROVAL ( #170, 'UNSPECIFIED' ) ;
#147 = FACE_BOUND ( 'NONE', #110, .T. ) ;
#148 = CARTESIAN_POINT ( 'NONE',  ( 0.0000000000000000000, 0.0000000000000000000, -3000.000000000000000 ) ) ;
#149 = ORIENTED_EDGE ( 'NONE', *, *, #178, .F. ) ;
#150 = CALENDAR_DATE ( 2018, 17, 7 ) ;
#151 = CIRCLE ( 'NONE', #228, 19.89999999999999900 ) ;
#152 = ADVANCED_FACE ( 'NONE', ( #36, #22 ), #140, .T. ) ;
#153 = LOCAL_TIME ( 9, 47, 51.00000000000000000, #209 ) ;
#154 = EDGE_CURVE ( 'NONE', #196, #128, #151, .T. ) ;
#155 = DATE_AND_TIME ( #190, #67 ) ;
#156 = AXIS2_PLACEMENT_3D ( 'NONE', #182, #198, #109 ) ;
#157 = ADVANCED_FACE ( 'NONE', ( #7 ), #247, .T. ) ;
#158 = AXIS2_PLACEMENT_3D ( 'NONE', #163, #94, #57 ) ;
#159 = CARTESIAN_POINT ( 'NONE',  ( 0.0000000000000000000, 0.0000000000000000000, 3000.000000000000000 ) ) ;
#160 = CIRCLE ( 'NONE', #135, 19.89999999999999900 ) ;
#161 = DATE_AND_TIME ( #23, #53 ) ;
#162 = CC_DESIGN_PERSON_AND_ORGANIZATION_ASSIGNMENT ( #199, #11, ( #237 ) ) ;
#163 = CARTESIAN_POINT ( 'NONE',  ( 0.0000000000000000000, 0.0000000000000000000, 3000.000000000000000 ) ) ;
#164 = EDGE_CURVE ( 'NONE', #196, #133, #118, .T. ) ;
#165 = VERTEX_POINT ( 'NONE', #56 ) ;
#166 = DIRECTION ( 'NONE',  ( 0.0000000000000000000, 0.0000000000000000000, 1.000000000000000000 ) ) ;
#167 =( LENGTH_UNIT ( ) NAMED_UNIT ( * ) SI_UNIT ( .MILLI., .METRE. ) );
#168 = PERSON_AND_ORGANIZATION_ROLE ( 'design_supplier' ) ;
#169 = CC_DESIGN_DATE_AND_TIME_ASSIGNMENT ( #216, #100, ( #213 ) ) ;
#170 = APPROVAL_STATUS ( 'not_yet_approved' ) ;
#171 = APPROVAL_ROLE ( '' ) ;
#172 = EDGE_CURVE ( 'NONE', #165, #66, #85, .T. ) ;
#173 = APPROVAL_PERSON_ORGANIZATION ( #143, #191, #48 ) ;
#174 = AXIS2_PLACEMENT_3D ( 'NONE', #91, #1, #115 ) ;
#175 = LINE ( 'NONE', #49, #245 ) ;
#176 = CC_DESIGN_APPROVAL ( #121, ( #127 ) ) ;
#177 = DIRECTION ( 'NONE',  ( -1.000000000000000000, 0.0000000000000000000, 0.0000000000000000000 ) ) ;
#178 = EDGE_CURVE ( 'NONE', #128, #192, #214, .T. ) ;
#179 = ORIENTED_EDGE ( 'NONE', *, *, #230, .F. ) ;
#180 = LOCAL_TIME ( 9, 47, 51.00000000000000000, #227 ) ;
#181 = CARTESIAN_POINT ( 'NONE',  ( 0.0000000000000000000, 0.0000000000000000000, -3000.000000000000000 ) ) ;
#182 = CARTESIAN_POINT ( 'NONE',  ( 0.0000000000000000000, 0.0000000000000000000, 3000.000000000000000 ) ) ;
#183 = ORIENTED_EDGE ( 'NONE', *, *, #172, .F. ) ;
#184 = DIRECTION ( 'NONE',  ( -0.0000000000000000000, -0.0000000000000000000, -1.000000000000000000 ) ) ;
#185 = CARTESIAN_POINT ( 'NONE',  ( 0.0000000000000000000, 0.0000000000000000000, 3000.000000000000000 ) ) ;
#186 = DIRECTION ( 'NONE',  ( 1.000000000000000000, 0.0000000000000000000, 0.0000000000000000000 ) ) ;
#187 = ORIENTED_EDGE ( 'NONE', *, *, #154, .T. ) ;
#188 = CC_DESIGN_SECURITY_CLASSIFICATION ( #237, ( #127 ) ) ;
#189 =( NAMED_UNIT ( * ) PLANE_ANGLE_UNIT ( ) SI_UNIT ( $, .RADIAN. ) );
#190 = CALENDAR_DATE ( 2018, 17, 7 ) ;
#191 = APPROVAL ( #242, 'UNSPECIFIED' ) ;
#192 = VERTEX_POINT ( 'NONE', #104 ) ;
#193 = EDGE_LOOP ( 'NONE', ( #231, #142, #90, #149 ) ) ;
#194 = DATE_AND_TIME ( #15, #111 ) ;
#195 = FACE_OUTER_BOUND ( 'NONE', #71, .T. ) ;
#196 = VERTEX_POINT ( 'NONE', #87 ) ;
#197 = DIRECTION ( 'NONE',  ( 0.0000000000000000000, 0.0000000000000000000, 1.000000000000000000 ) ) ;
#198 = DIRECTION ( 'NONE',  ( 0.0000000000000000000, 0.0000000000000000000, 1.000000000000000000 ) ) ;
#199 = PERSON_AND_ORGANIZATION ( #114, #38 ) ;
#200 = ADVANCED_FACE ( 'NONE', ( #195, #147 ), #61, .F. ) ;
#201 = PRODUCT ( 'T24000', 'T24000', '', ( #129 ) ) ;
#202 = EDGE_LOOP ( 'NONE', ( #50, #187, #123, #69 ) ) ;
#203 = CC_DESIGN_PERSON_AND_ORGANIZATION_ASSIGNMENT ( #26, #168, ( #127 ) ) ;
#204 = DIRECTION ( 'NONE',  ( 0.0000000000000000000, 0.0000000000000000000, 1.000000000000000000 ) ) ;
#205 = DIRECTION ( 'NONE',  ( 1.000000000000000000, 0.0000000000000000000, 0.0000000000000000000 ) ) ;
#206 = CARTESIAN_POINT ( 'NONE',  ( 0.0000000000000000000, 0.0000000000000000000, 0.0000000000000000000 ) ) ;
#207 = PERSON_AND_ORGANIZATION_ROLE ( 'creator' ) ;
#208 = CYLINDRICAL_SURFACE ( 'NONE', #158, 19.89999999999999900 ) ;
#209 = COORDINATED_UNIVERSAL_TIME_OFFSET ( 0, 0, .AHEAD. ) ;
#210 = DIRECTION ( 'NONE',  ( 1.000000000000000000, 0.0000000000000000000, 0.0000000000000000000 ) ) ;
#211 = EDGE_LOOP ( 'NONE', ( #138, #29, #88, #3 ) ) ;
#212 = PERSON_AND_ORGANIZATION ( #114, #38 ) ;
#213 = PRODUCT_DEFINITION ( 'UNKNOWN', '', #127, #86 ) ;
#214 = LINE ( 'NONE', #243, #55 ) ;
#215 = APPROVAL_PERSON_ORGANIZATION ( #224, #146, #81 ) ;
#216 = DATE_AND_TIME ( #150, #153 ) ;
#217 = CARTESIAN_POINT ( 'NONE',  ( -24.14999999999999900, 0.0000000000000000000, -3000.000000000000000 ) ) ;
#218 = CIRCLE ( 'NONE', #113, 19.89999999999999900 ) ;
#219 = VERTEX_POINT ( 'NONE', #141 ) ;
#220 = AXIS2_PLACEMENT_3D ( 'NONE', #148, #64, #31 ) ;
#221 = APPROVAL_STATUS ( 'not_yet_approved' ) ;
#222 = APPLICATION_CONTEXT ( 'configuration controlled 3d designs of mechanical parts and assemblies' ) ;
#223 = LINE ( 'NONE', #112, #12 ) ;
#224 = PERSON_AND_ORGANIZATION ( #114, #38 ) ;
#225 = APPLICATION_PROTOCOL_DEFINITION ( 'international standard', 'config_control_design', 1994, #222 ) ;
#226 = FACE_OUTER_BOUND ( 'NONE', #193, .T. ) ;
#227 = COORDINATED_UNIVERSAL_TIME_OFFSET ( 0, 0, .AHEAD. ) ;
#228 = AXIS2_PLACEMENT_3D ( 'NONE', #120, #166, #80 ) ;
#229 = ORIENTED_EDGE ( 'NONE', *, *, #65, .T. ) ;
#230 = EDGE_CURVE ( 'NONE', #106, #165, #175, .T. ) ;
#231 = ORIENTED_EDGE ( 'NONE', *, *, #130, .T. ) ;
#232 = CC_DESIGN_PERSON_AND_ORGANIZATION_ASSIGNMENT ( #17, #244, ( #201 ) ) ;
#233 = AXIS2_PLACEMENT_3D ( 'NONE', #159, #184, #40 ) ;
#234 = COORDINATED_UNIVERSAL_TIME_OFFSET ( 0, 0, .AHEAD. ) ;
#235 = DIRECTION ( 'NONE',  ( 1.000000000000000000, 0.0000000000000000000, 0.0000000000000000000 ) ) ;
#236 = CARTESIAN_POINT ( 'NONE',  ( 19.89999999999999900, 2.437047130303232800E-015, 3000.000000000000000 ) ) ;
#237 = SECURITY_CLASSIFICATION ( '', '', #62 ) ;
#238 = CIRCLE ( 'NONE', #99, 24.14999999999999900 ) ;
#239 = CARTESIAN_POINT ( 'NONE',  ( 0.0000000000000000000, 0.0000000000000000000, 3000.000000000000000 ) ) ;
#240 = ORIENTED_EDGE ( 'NONE', *, *, #116, .T. ) ;
#241 = DATE_TIME_ROLE ( 'classification_date' ) ;
#242 = APPROVAL_STATUS ( 'not_yet_approved' ) ;
#243 = CARTESIAN_POINT ( 'NONE',  ( -19.89999999999999900, 0.0000000000000000000, 3000.000000000000000 ) ) ;
#244 = PERSON_AND_ORGANIZATION_ROLE ( 'design_owner' ) ;
#245 = VECTOR ( 'NONE', #28, 1000.000000000000000 ) ;
#246 = PERSON_AND_ORGANIZATION ( #114, #38 ) ;
#247 = CYLINDRICAL_SURFACE ( 'NONE', #233, 24.14999999999999900 ) ;
#248 = ORIENTED_EDGE ( 'NONE', *, *, #54, .T. ) ;
#249 = CC_DESIGN_APPROVAL ( #191, ( #237 ) ) ;
ENDSEC;
END-ISO-10303-21;
