ISO-10303-21;
HEADER;
FILE_DESCRIPTION (( 'STEP AP203' ),
    '1' );
FILE_NAME ('T24001.STEP',
    '2018-07-17T09:02:42',
    ( '' ),
    ( '' ),
    'SwSTEP 2.0',
    'SolidWorks 2016',
    '' );
FILE_SCHEMA (( 'CONFIG_CONTROL_DESIGN' ));
ENDSEC;

DATA;
#1 = DATE_AND_TIME ( #53, #58 ) ;
#2 = CARTESIAN_POINT ( 'NONE',  ( 500.0000000000000000, 0.0000000000000000000, 0.0000000000000000000 ) ) ;
#3 = DIRECTION ( 'NONE',  ( 0.0000000000000000000, 0.0000000000000000000, -1.000000000000000000 ) ) ;
#4 = CARTESIAN_POINT ( 'NONE',  ( -499.9999999999999400, 2.326828918379971400E-015, -19.00000000000000400 ) ) ;
#5 = DIRECTION ( 'NONE',  ( 0.0000000000000000000, 0.0000000000000000000, -1.000000000000000000 ) ) ;
#6 = PERSON_AND_ORGANIZATION_ROLE ( 'design_owner' ) ;
#7 = MANIFOLD_SOLID_BREP ( 'Extrude-Thin1', #74 ) ;
#8 = FACE_OUTER_BOUND ( 'NONE', #225, .T. ) ;
#9 = EDGE_CURVE ( 'NONE', #161, #146, #107, .T. ) ;
#10 = PRODUCT_DEFINITION_FORMATION_WITH_SPECIFIED_SOURCE ( 'ANY', '', #201, .NOT_KNOWN. ) ;
#11 = AXIS2_PLACEMENT_3D ( 'NONE', #192, #155, #227 ) ;
#12 = ORIENTED_EDGE ( 'NONE', *, *, #216, .F. ) ;
#13 = LINE ( 'NONE', #128, #57 ) ;
#14 = CYLINDRICAL_SURFACE ( 'NONE', #95, 19.00000000000000400 ) ;
#15 = ADVANCED_FACE ( 'NONE', ( #8 ), #162, .T. ) ;
#16 = EDGE_CURVE ( 'NONE', #32, #91, #13, .T. ) ;
#17 = CIRCLE ( 'NONE', #43, 24.00000000000000400 ) ;
#18 = APPROVAL ( #160, 'UNSPECIFIED' ) ;
#19 = DIRECTION ( 'NONE',  ( 0.0000000000000000000, 0.0000000000000000000, -1.000000000000000000 ) ) ;
#20 = DIRECTION ( 'NONE',  ( -1.000000000000000000, -0.0000000000000000000, -0.0000000000000000000 ) ) ;
#21 = AXIS2_PLACEMENT_3D ( 'NONE', #125, #37, #195 ) ;
#22 = DIRECTION ( 'NONE',  ( -1.000000000000000000, -0.0000000000000000000, -0.0000000000000000000 ) ) ;
#23 = PLANE ( 'NONE',  #122 ) ;
#24 =( NAMED_UNIT ( * ) PLANE_ANGLE_UNIT ( ) SI_UNIT ( $, .RADIAN. ) );
#25 = CC_DESIGN_PERSON_AND_ORGANIZATION_ASSIGNMENT ( #249, #199, ( #10 ) ) ;
#26 = CIRCLE ( 'NONE', #115, 19.00000000000000400 ) ;
#27 = DIRECTION ( 'NONE',  ( 1.000000000000000000, 0.0000000000000000000, 0.0000000000000000000 ) ) ;
#28 = PERSON_AND_ORGANIZATION_ROLE ( 'creator' ) ;
#29 = ORIENTED_EDGE ( 'NONE', *, *, #129, .T. ) ;
#30 = EDGE_CURVE ( 'NONE', #51, #161, #105, .T. ) ;
#31 = VERTEX_POINT ( 'NONE', #169 ) ;
#32 = VERTEX_POINT ( 'NONE', #59 ) ;
#33 = COORDINATED_UNIVERSAL_TIME_OFFSET ( 0, 0, .AHEAD. ) ;
#34 = PRODUCT_RELATED_PRODUCT_CATEGORY ( 'detail', '', ( #201 ) ) ;
#35 = ORIENTED_EDGE ( 'NONE', *, *, #69, .F. ) ;
#36 = APPROVAL_PERSON_ORGANIZATION ( #191, #141, #137 ) ;
#37 = DIRECTION ( 'NONE',  ( -1.000000000000000000, -0.0000000000000000000, -0.0000000000000000000 ) ) ;
#38 = DIRECTION ( 'NONE',  ( 0.0000000000000000000, 0.0000000000000000000, 1.000000000000000000 ) ) ;
#39 = CARTESIAN_POINT ( 'NONE',  ( 500.0000000000000000, 0.0000000000000000000, 0.0000000000000000000 ) ) ;
#40 = APPLICATION_CONTEXT ( 'configuration controlled 3d designs of mechanical parts and assemblies' ) ;
#41 = APPROVAL_ROLE ( '' ) ;
#42 = EDGE_CURVE ( 'NONE', #214, #51, #230, .T. ) ;
#43 = AXIS2_PLACEMENT_3D ( 'NONE', #159, #179, #64 ) ;
#44 = CARTESIAN_POINT ( 'NONE',  ( -499.9999999999999400, 0.0000000000000000000, 0.0000000000000000000 ) ) ;
#45 = DIRECTION ( 'NONE',  ( 1.000000000000000000, 0.0000000000000000000, 0.0000000000000000000 ) ) ;
#46 = ORIENTED_EDGE ( 'NONE', *, *, #69, .T. ) ;
#47 = VECTOR ( 'NONE', #22, 1000.000000000000000 ) ;
#48 = EDGE_CURVE ( 'NONE', #32, #31, #130, .T. ) ;
#49 = LOCAL_TIME ( 10, 2, 42.00000000000000000, #210 ) ;
#50 = FACE_OUTER_BOUND ( 'NONE', #88, .T. ) ;
#51 = VERTEX_POINT ( 'NONE', #131 ) ;
#52 = APPROVAL_DATE_TIME ( #106, #90 ) ;
#53 = CALENDAR_DATE ( 2018, 17, 7 ) ;
#54 = EDGE_CURVE ( 'NONE', #214, #146, #110, .T. ) ;
#55 = SECURITY_CLASSIFICATION ( '', '', #111 ) ;
#56 = CARTESIAN_POINT ( 'NONE',  ( -499.9999999999999400, 0.0000000000000000000, 24.00000000000000400 ) ) ;
#57 = VECTOR ( 'NONE', #153, 1000.000000000000000 ) ;
#58 = LOCAL_TIME ( 10, 2, 42.00000000000000000, #163 ) ;
#59 = CARTESIAN_POINT ( 'NONE',  ( 500.0000000000000000, 0.0000000000000000000, 19.00000000000000400 ) ) ;
#60 = CARTESIAN_POINT ( 'NONE',  ( 500.0000000000000000, 2.326828918379971400E-015, -19.00000000000000400 ) ) ;
#61 = DIRECTION ( 'NONE',  ( 1.000000000000000000, 0.0000000000000000000, 0.0000000000000000000 ) ) ;
#62 = APPROVAL_DATE_TIME ( #152, #18 ) ;
#63 = DIRECTION ( 'NONE',  ( -1.000000000000000000, -0.0000000000000000000, -0.0000000000000000000 ) ) ;
#64 = DIRECTION ( 'NONE',  ( 0.0000000000000000000, 0.0000000000000000000, -1.000000000000000000 ) ) ;
#65 = EDGE_LOOP ( 'NONE', ( #242, #219 ) ) ;
#66 = VECTOR ( 'NONE', #170, 1000.000000000000000 ) ;
#67 = CC_DESIGN_DATE_AND_TIME_ASSIGNMENT ( #140, #134, ( #55 ) ) ;
#68 = EDGE_LOOP ( 'NONE', ( #235, #12 ) ) ;
#69 = EDGE_CURVE ( 'NONE', #31, #220, #147, .T. ) ;
#70 = AXIS2_PLACEMENT_3D ( 'NONE', #71, #20, #78 ) ;
#71 = CARTESIAN_POINT ( 'NONE',  ( 500.0000000000000000, 0.0000000000000000000, 0.0000000000000000000 ) ) ;
#72 = ORIENTED_EDGE ( 'NONE', *, *, #54, .T. ) ;
#73 = SHAPE_DEFINITION_REPRESENTATION ( #233, #114 ) ;
#74 = CLOSED_SHELL ( 'NONE', ( #165, #87, #187, #144, #15, #118 ) ) ;
#75 = DIRECTION ( 'NONE',  ( 1.000000000000000000, 0.0000000000000000000, 0.0000000000000000000 ) ) ;
#76 = CARTESIAN_POINT ( 'NONE',  ( -499.9999999999999400, 0.0000000000000000000, 0.0000000000000000000 ) ) ;
#77 = CARTESIAN_POINT ( 'NONE',  ( 500.0000000000000000, 0.0000000000000000000, 24.00000000000000400 ) ) ;
#78 = DIRECTION ( 'NONE',  ( 0.0000000000000000000, 0.0000000000000000000, 1.000000000000000000 ) ) ;
#79 = DIRECTION ( 'NONE',  ( 0.0000000000000000000, 0.0000000000000000000, -1.000000000000000000 ) ) ;
#80 = APPLICATION_PROTOCOL_DEFINITION ( 'international standard', 'config_control_design', 1994, #40 ) ;
#81 = AXIS2_PLACEMENT_3D ( 'NONE', #76, #229, #127 ) ;
#82 = CARTESIAN_POINT ( 'NONE',  ( 0.0000000000000000000, 0.0000000000000000000, 0.0000000000000000000 ) ) ;
#83 = ORIENTED_EDGE ( 'NONE', *, *, #164, .T. ) ;
#84 = LOCAL_TIME ( 10, 2, 42.00000000000000000, #33 ) ;
#85 = CYLINDRICAL_SURFACE ( 'NONE', #21, 24.00000000000000400 ) ;
#86 = APPROVAL_PERSON_ORGANIZATION ( #124, #18, #173 ) ;
#87 = ADVANCED_FACE ( 'NONE', ( #50 ), #85, .T. ) ;
#88 = EDGE_LOOP ( 'NONE', ( #151, #166, #135, #180 ) ) ;
#89 = DIRECTION ( 'NONE',  ( 0.0000000000000000000, 0.0000000000000000000, -1.000000000000000000 ) ) ;
#90 = APPROVAL ( #176, 'UNSPECIFIED' ) ;
#91 = VERTEX_POINT ( 'NONE', #224 ) ;
#92 = DIRECTION ( 'NONE',  ( 0.0000000000000000000, 0.0000000000000000000, -1.000000000000000000 ) ) ;
#93 = DIRECTION ( 'NONE',  ( 0.0000000000000000000, 0.0000000000000000000, -1.000000000000000000 ) ) ;
#94 = PERSON_AND_ORGANIZATION ( #177, #148 ) ;
#95 = AXIS2_PLACEMENT_3D ( 'NONE', #198, #63, #175 ) ;
#96 = DIRECTION ( 'NONE',  ( -1.000000000000000000, -0.0000000000000000000, -0.0000000000000000000 ) ) ;
#97 = CARTESIAN_POINT ( 'NONE',  ( 500.0000000000000000, 0.0000000000000000000, 0.0000000000000000000 ) ) ;
#98 = CC_DESIGN_PERSON_AND_ORGANIZATION_ASSIGNMENT ( #206, #28, ( #10 ) ) ;
#99 = PERSON_AND_ORGANIZATION_ROLE ( 'creator' ) ;
#100 = CARTESIAN_POINT ( 'NONE',  ( -499.9999999999999400, 0.0000000000000000000, 0.0000000000000000000 ) ) ;
#101 = LOCAL_TIME ( 10, 2, 42.00000000000000000, #184 ) ;
#102 = FACE_OUTER_BOUND ( 'NONE', #65, .T. ) ;
#103 = PERSON_AND_ORGANIZATION ( #177, #148 ) ;
#104 = VECTOR ( 'NONE', #96, 1000.000000000000000 ) ;
#105 = LINE ( 'NONE', #150, #47 ) ;
#106 = DATE_AND_TIME ( #238, #84 ) ;
#107 = CIRCLE ( 'NONE', #81, 24.00000000000000400 ) ;
#108 = DIRECTION ( 'NONE',  ( -1.000000000000000000, -0.0000000000000000000, -0.0000000000000000000 ) ) ;
#109 = DIRECTION ( 'NONE',  ( 1.000000000000000000, 0.0000000000000000000, 0.0000000000000000000 ) ) ;
#110 = LINE ( 'NONE', #77, #66 ) ;
#111 = SECURITY_CLASSIFICATION_LEVEL ( 'unclassified' ) ;
#112 = APPLICATION_CONTEXT ( 'configuration controlled 3d designs of mechanical parts and assemblies' ) ;
#113 = ORIENTED_EDGE ( 'NONE', *, *, #216, .T. ) ;
#114 = ADVANCED_BREP_SHAPE_REPRESENTATION ( 'T24001', ( #7, #182 ), #186 ) ;
#115 = AXIS2_PLACEMENT_3D ( 'NONE', #100, #236, #3 ) ;
#116 = CIRCLE ( 'NONE', #245, 19.00000000000000400 ) ;
#117 = CC_DESIGN_APPROVAL ( #90, ( #10 ) ) ;
#118 = ADVANCED_FACE ( 'NONE', ( #203 ), #138, .F. ) ;
#119 = EDGE_LOOP ( 'NONE', ( #35, #113, #139, #223 ) ) ;
#120 = ORIENTED_EDGE ( 'NONE', *, *, #164, .F. ) ;
#121 = APPROVAL_PERSON_ORGANIZATION ( #185, #90, #41 ) ;
#122 = AXIS2_PLACEMENT_3D ( 'NONE', #149, #75, #19 ) ;
#123 = ORIENTED_EDGE ( 'NONE', *, *, #16, .F. ) ;
#124 = PERSON_AND_ORGANIZATION ( #177, #148 ) ;
#125 = CARTESIAN_POINT ( 'NONE',  ( 500.0000000000000000, 0.0000000000000000000, 0.0000000000000000000 ) ) ;
#126 = DATE_AND_TIME ( #181, #226 ) ;
#127 = DIRECTION ( 'NONE',  ( 0.0000000000000000000, 0.0000000000000000000, -1.000000000000000000 ) ) ;
#128 = CARTESIAN_POINT ( 'NONE',  ( 500.0000000000000000, 0.0000000000000000000, 19.00000000000000400 ) ) ;
#129 = EDGE_CURVE ( 'NONE', #146, #161, #211, .T. ) ;
#130 = CIRCLE ( 'NONE', #158, 19.00000000000000400 ) ;
#131 = CARTESIAN_POINT ( 'NONE',  ( 500.0000000000000000, 2.939152317953648300E-015, -24.00000000000000400 ) ) ;
#132 =( LENGTH_UNIT ( ) NAMED_UNIT ( * ) SI_UNIT ( .MILLI., .METRE. ) );
#133 = CC_DESIGN_APPROVAL ( #18, ( #55 ) ) ;
#134 = DATE_TIME_ROLE ( 'classification_date' ) ;
#135 = ORIENTED_EDGE ( 'NONE', *, *, #9, .T. ) ;
#136 = ORIENTED_EDGE ( 'NONE', *, *, #9, .F. ) ;
#137 = APPROVAL_ROLE ( '' ) ;
#138 = CYLINDRICAL_SURFACE ( 'NONE', #70, 19.00000000000000400 ) ;
#139 = ORIENTED_EDGE ( 'NONE', *, *, #16, .T. ) ;
#140 = DATE_AND_TIME ( #189, #101 ) ;
#141 = APPROVAL ( #196, 'UNSPECIFIED' ) ;
#142 = PERSON_AND_ORGANIZATION ( #177, #148 ) ;
#143 = AXIS2_PLACEMENT_3D ( 'NONE', #97, #109, #5 ) ;
#144 = ADVANCED_FACE ( 'NONE', ( #240, #222 ), #23, .F. ) ;
#145 = CC_DESIGN_PERSON_AND_ORGANIZATION_ASSIGNMENT ( #94, #99, ( #231 ) ) ;
#146 = VERTEX_POINT ( 'NONE', #56 ) ;
#147 = LINE ( 'NONE', #60, #104 ) ;
#148 = ORGANIZATION ( 'UNSPECIFIED', 'UNSPECIFIED', '' ) ;
#149 = CARTESIAN_POINT ( 'NONE',  ( -499.9999999999999400, 0.0000000000000000000, 0.0000000000000000000 ) ) ;
#150 = CARTESIAN_POINT ( 'NONE',  ( 500.0000000000000000, 2.939152317953648300E-015, -24.00000000000000400 ) ) ;
#151 = ORIENTED_EDGE ( 'NONE', *, *, #243, .F. ) ;
#152 = DATE_AND_TIME ( #241, #49 ) ;
#153 = DIRECTION ( 'NONE',  ( -1.000000000000000000, -0.0000000000000000000, -0.0000000000000000000 ) ) ;
#154 =( NAMED_UNIT ( * ) SI_UNIT ( $, .STERADIAN. ) SOLID_ANGLE_UNIT ( ) );
#155 = DIRECTION ( 'NONE',  ( 1.000000000000000000, 0.0000000000000000000, 0.0000000000000000000 ) ) ;
#156 = MECHANICAL_CONTEXT ( 'NONE', #40, 'mechanical' ) ;
#157 = CARTESIAN_POINT ( 'NONE',  ( -499.9999999999999400, 2.939152317953648300E-015, -24.00000000000000400 ) ) ;
#158 = AXIS2_PLACEMENT_3D ( 'NONE', #39, #168, #92 ) ;
#159 = CARTESIAN_POINT ( 'NONE',  ( 500.0000000000000000, 0.0000000000000000000, 0.0000000000000000000 ) ) ;
#160 = APPROVAL_STATUS ( 'not_yet_approved' ) ;
#161 = VERTEX_POINT ( 'NONE', #157 ) ;
#162 = CYLINDRICAL_SURFACE ( 'NONE', #239, 24.00000000000000400 ) ;
#163 = COORDINATED_UNIVERSAL_TIME_OFFSET ( 0, 0, .AHEAD. ) ;
#164 = EDGE_CURVE ( 'NONE', #91, #220, #247, .T. ) ;
#165 = ADVANCED_FACE ( 'NONE', ( #209 ), #14, .F. ) ;
#166 = ORIENTED_EDGE ( 'NONE', *, *, #30, .T. ) ;
#167 = CC_DESIGN_SECURITY_CLASSIFICATION ( #55, ( #10 ) ) ;
#168 = DIRECTION ( 'NONE',  ( 1.000000000000000000, 0.0000000000000000000, 0.0000000000000000000 ) ) ;
#169 = CARTESIAN_POINT ( 'NONE',  ( 500.0000000000000000, 2.326828918379971400E-015, -19.00000000000000400 ) ) ;
#170 = DIRECTION ( 'NONE',  ( -1.000000000000000000, -0.0000000000000000000, -0.0000000000000000000 ) ) ;
#171 = PERSON_AND_ORGANIZATION_ROLE ( 'classification_officer' ) ;
#172 = CARTESIAN_POINT ( 'NONE',  ( -499.9999999999999400, 0.0000000000000000000, 0.0000000000000000000 ) ) ;
#173 = APPROVAL_ROLE ( '' ) ;
#174 = FACE_BOUND ( 'NONE', #68, .T. ) ;
#175 = DIRECTION ( 'NONE',  ( 0.0000000000000000000, 0.0000000000000000000, 1.000000000000000000 ) ) ;
#176 = APPROVAL_STATUS ( 'not_yet_approved' ) ;
#177 = PERSON ( 'UNSPECIFIED', 'UNSPECIFIED', 'UNSPECIFIED', ('UNSPECIFIED'), ('UNSPECIFIED'), ('UNSPECIFIED') ) ;
#178 = DESIGN_CONTEXT ( 'detailed design', #112, 'design' ) ;
#179 = DIRECTION ( 'NONE',  ( 1.000000000000000000, 0.0000000000000000000, 0.0000000000000000000 ) ) ;
#180 = ORIENTED_EDGE ( 'NONE', *, *, #54, .F. ) ;
#181 = CALENDAR_DATE ( 2018, 17, 7 ) ;
#182 = AXIS2_PLACEMENT_3D ( 'NONE', #82, #218, #61 ) ;
#183 = ORIENTED_EDGE ( 'NONE', *, *, #129, .F. ) ;
#184 = COORDINATED_UNIVERSAL_TIME_OFFSET ( 0, 0, .AHEAD. ) ;
#185 = PERSON_AND_ORGANIZATION ( #177, #148 ) ;
#186 =( GEOMETRIC_REPRESENTATION_CONTEXT ( 3 ) GLOBAL_UNCERTAINTY_ASSIGNED_CONTEXT ( ( #194 ) ) GLOBAL_UNIT_ASSIGNED_CONTEXT ( ( #132, #24, #154 ) ) REPRESENTATION_CONTEXT ( 'NONE', 'WORKASPACE' ) );
#187 = ADVANCED_FACE ( 'NONE', ( #102, #174 ), #217, .T. ) ;
#188 = CC_DESIGN_APPROVAL ( #141, ( #231 ) ) ;
#189 = CALENDAR_DATE ( 2018, 17, 7 ) ;
#190 = ORIENTED_EDGE ( 'NONE', *, *, #221, .T. ) ;
#191 = PERSON_AND_ORGANIZATION ( #177, #148 ) ;
#192 = CARTESIAN_POINT ( 'NONE',  ( 500.0000000000000000, 0.0000000000000000000, 0.0000000000000000000 ) ) ;
#193 = ORIENTED_EDGE ( 'NONE', *, *, #48, .T. ) ;
#194 = UNCERTAINTY_MEASURE_WITH_UNIT (LENGTH_MEASURE( 1.000000000000000100E-005 ), #132, 'distance_accuracy_value', 'NONE');
#195 = DIRECTION ( 'NONE',  ( 0.0000000000000000000, 0.0000000000000000000, 1.000000000000000000 ) ) ;
#196 = APPROVAL_STATUS ( 'not_yet_approved' ) ;
#197 = CC_DESIGN_PERSON_AND_ORGANIZATION_ASSIGNMENT ( #142, #6, ( #201 ) ) ;
#198 = CARTESIAN_POINT ( 'NONE',  ( 500.0000000000000000, 0.0000000000000000000, 0.0000000000000000000 ) ) ;
#199 = PERSON_AND_ORGANIZATION_ROLE ( 'design_supplier' ) ;
#200 = AXIS2_PLACEMENT_3D ( 'NONE', #172, #213, #89 ) ;
#201 = PRODUCT ( 'T24001', 'T24001', '', ( #156 ) ) ;
#202 = APPLICATION_PROTOCOL_DEFINITION ( 'international standard', 'config_control_design', 1994, #112 ) ;
#203 = FACE_OUTER_BOUND ( 'NONE', #119, .T. ) ;
#204 = DATE_TIME_ROLE ( 'creation_date' ) ;
#205 = EDGE_LOOP ( 'NONE', ( #193, #46, #120, #123 ) ) ;
#206 = PERSON_AND_ORGANIZATION ( #177, #148 ) ;
#207 = APPROVAL_DATE_TIME ( #1, #141 ) ;
#208 = CC_DESIGN_PERSON_AND_ORGANIZATION_ASSIGNMENT ( #103, #171, ( #55 ) ) ;
#209 = FACE_OUTER_BOUND ( 'NONE', #205, .T. ) ;
#210 = COORDINATED_UNIVERSAL_TIME_OFFSET ( 0, 0, .AHEAD. ) ;
#211 = CIRCLE ( 'NONE', #200, 24.00000000000000400 ) ;
#212 = CC_DESIGN_DATE_AND_TIME_ASSIGNMENT ( #126, #204, ( #231 ) ) ;
#213 = DIRECTION ( 'NONE',  ( 1.000000000000000000, 0.0000000000000000000, 0.0000000000000000000 ) ) ;
#214 = VERTEX_POINT ( 'NONE', #232 ) ;
#215 = EDGE_LOOP ( 'NONE', ( #183, #136 ) ) ;
#216 = EDGE_CURVE ( 'NONE', #31, #32, #116, .T. ) ;
#217 = PLANE ( 'NONE',  #143 ) ;
#218 = DIRECTION ( 'NONE',  ( 0.0000000000000000000, 0.0000000000000000000, 1.000000000000000000 ) ) ;
#219 = ORIENTED_EDGE ( 'NONE', *, *, #243, .T. ) ;
#220 = VERTEX_POINT ( 'NONE', #4 ) ;
#221 = EDGE_CURVE ( 'NONE', #220, #91, #26, .T. ) ;
#222 = FACE_BOUND ( 'NONE', #244, .T. ) ;
#223 = ORIENTED_EDGE ( 'NONE', *, *, #221, .F. ) ;
#224 = CARTESIAN_POINT ( 'NONE',  ( -499.9999999999999400, 0.0000000000000000000, 19.00000000000000400 ) ) ;
#225 = EDGE_LOOP ( 'NONE', ( #248, #237, #72, #29 ) ) ;
#226 = LOCAL_TIME ( 10, 2, 42.00000000000000000, #246 ) ;
#227 = DIRECTION ( 'NONE',  ( 0.0000000000000000000, 0.0000000000000000000, -1.000000000000000000 ) ) ;
#228 = AXIS2_PLACEMENT_3D ( 'NONE', #44, #27, #79 ) ;
#229 = DIRECTION ( 'NONE',  ( 1.000000000000000000, 0.0000000000000000000, 0.0000000000000000000 ) ) ;
#230 = CIRCLE ( 'NONE', #11, 24.00000000000000400 ) ;
#231 = PRODUCT_DEFINITION ( 'UNKNOWN', '', #10, #178 ) ;
#232 = CARTESIAN_POINT ( 'NONE',  ( 500.0000000000000000, 0.0000000000000000000, 24.00000000000000400 ) ) ;
#233 = PRODUCT_DEFINITION_SHAPE ( 'NONE', 'NONE',  #231 ) ;
#234 = CARTESIAN_POINT ( 'NONE',  ( 500.0000000000000000, 0.0000000000000000000, 0.0000000000000000000 ) ) ;
#235 = ORIENTED_EDGE ( 'NONE', *, *, #48, .F. ) ;
#236 = DIRECTION ( 'NONE',  ( 1.000000000000000000, 0.0000000000000000000, 0.0000000000000000000 ) ) ;
#237 = ORIENTED_EDGE ( 'NONE', *, *, #42, .F. ) ;
#238 = CALENDAR_DATE ( 2018, 17, 7 ) ;
#239 = AXIS2_PLACEMENT_3D ( 'NONE', #2, #108, #38 ) ;
#240 = FACE_OUTER_BOUND ( 'NONE', #215, .T. ) ;
#241 = CALENDAR_DATE ( 2018, 17, 7 ) ;
#242 = ORIENTED_EDGE ( 'NONE', *, *, #42, .T. ) ;
#243 = EDGE_CURVE ( 'NONE', #51, #214, #17, .T. ) ;
#244 = EDGE_LOOP ( 'NONE', ( #83, #190 ) ) ;
#245 = AXIS2_PLACEMENT_3D ( 'NONE', #234, #45, #93 ) ;
#246 = COORDINATED_UNIVERSAL_TIME_OFFSET ( 0, 0, .AHEAD. ) ;
#247 = CIRCLE ( 'NONE', #228, 19.00000000000000400 ) ;
#248 = ORIENTED_EDGE ( 'NONE', *, *, #30, .F. ) ;
#249 = PERSON_AND_ORGANIZATION ( #177, #148 ) ;
ENDSEC;
END-ISO-10303-21;
