ISO-10303-21;
HEADER;
FILE_DESCRIPTION (( 'STEP AP203' ),
    '1' );
FILE_NAME ('T24010.STEP',
    '2018-07-17T12:35:14',
    ( '' ),
    ( '' ),
    'SwSTEP 2.0',
    'SolidWorks 2016',
    '' );
FILE_SCHEMA (( 'CONFIG_CONTROL_DESIGN' ));
ENDSEC;

DATA;
#1 = CIRCLE ( 'NONE', #186, 19.89999999999999900 ) ;
#2 = LOCAL_TIME ( 13, 35, 14.00000000000000000, #216 ) ;
#3 = DIRECTION ( 'NONE',  ( 0.0000000000000000000, 0.0000000000000000000, 1.000000000000000000 ) ) ;
#4 = VERTEX_POINT ( 'NONE', #240 ) ;
#5 = VECTOR ( 'NONE', #102, 1000.000000000000000 ) ;
#6 = COORDINATED_UNIVERSAL_TIME_OFFSET ( 0, 0, .AHEAD. ) ;
#7 = DIRECTION ( 'NONE',  ( 1.000000000000000000, 0.0000000000000000000, -0.0000000000000000000 ) ) ;
#8 = CARTESIAN_POINT ( 'NONE',  ( 0.0000000000000000000, 0.0000000000000000000, -3000.000000000000000 ) ) ;
#9 = DIRECTION ( 'NONE',  ( -1.000000000000000000, 0.0000000000000000000, 0.0000000000000000000 ) ) ;
#10 = DIRECTION ( 'NONE',  ( 1.000000000000000000, 0.0000000000000000000, 0.0000000000000000000 ) ) ;
#11 = CLOSED_SHELL ( 'NONE', ( #144, #61, #190, #162, #220, #247 ) ) ;
#12 = ORIENTED_EDGE ( 'NONE', *, *, #109, .T. ) ;
#13 = DIRECTION ( 'NONE',  ( 0.0000000000000000000, 0.0000000000000000000, 1.000000000000000000 ) ) ;
#14 = PLANE ( 'NONE',  #24 ) ;
#15 = AXIS2_PLACEMENT_3D ( 'NONE', #71, #13, #242 ) ;
#16 = ORIENTED_EDGE ( 'NONE', *, *, #36, .T. ) ;
#17 = APPROVAL_DATE_TIME ( #65, #70 ) ;
#18 = FACE_OUTER_BOUND ( 'NONE', #154, .T. ) ;
#19 = EDGE_CURVE ( 'NONE', #166, #121, #74, .T. ) ;
#20 = CC_DESIGN_PERSON_AND_ORGANIZATION_ASSIGNMENT ( #42, #101, ( #218 ) ) ;
#21 = ORIENTED_EDGE ( 'NONE', *, *, #145, .T. ) ;
#22 = APPROVAL_STATUS ( 'not_yet_approved' ) ;
#23 = CIRCLE ( 'NONE', #78, 19.89999999999999900 ) ;
#24 = AXIS2_PLACEMENT_3D ( 'NONE', #206, #183, #73 ) ;
#25 = ORIENTED_EDGE ( 'NONE', *, *, #36, .F. ) ;
#26 = LINE ( 'NONE', #141, #51 ) ;
#27 = PERSON_AND_ORGANIZATION ( #217, #93 ) ;
#28 = CC_DESIGN_APPROVAL ( #70, ( #165 ) ) ;
#29 =( NAMED_UNIT ( * ) SI_UNIT ( $, .STERADIAN. ) SOLID_ANGLE_UNIT ( ) );
#30 = DIRECTION ( 'NONE',  ( -0.0000000000000000000, -0.0000000000000000000, -1.000000000000000000 ) ) ;
#31 = CARTESIAN_POINT ( 'NONE',  ( -19.89999999999999900, 0.0000000000000000000, -3000.000000000000000 ) ) ;
#32 = CIRCLE ( 'NONE', #181, 24.14999999999999900 ) ;
#33 = APPROVAL_DATE_TIME ( #202, #237 ) ;
#34 = CC_DESIGN_APPROVAL ( #237, ( #75 ) ) ;
#35 = CALENDAR_DATE ( 2018, 17, 7 ) ;
#36 = EDGE_CURVE ( 'NONE', #4, #128, #23, .T. ) ;
#37 = CC_DESIGN_DATE_AND_TIME_ASSIGNMENT ( #106, #223, ( #165 ) ) ;
#38 = DIRECTION ( 'NONE',  ( 0.0000000000000000000, 0.0000000000000000000, 1.000000000000000000 ) ) ;
#39 = ORIENTED_EDGE ( 'NONE', *, *, #122, .F. ) ;
#40 = DIRECTION ( 'NONE',  ( -0.0000000000000000000, -0.0000000000000000000, -1.000000000000000000 ) ) ;
#41 = CARTESIAN_POINT ( 'NONE',  ( 0.0000000000000000000, 0.0000000000000000000, 3000.000000000000000 ) ) ;
#42 = PERSON_AND_ORGANIZATION ( #217, #93 ) ;
#43 = SECURITY_CLASSIFICATION_LEVEL ( 'unclassified' ) ;
#44 = PERSON_AND_ORGANIZATION_ROLE ( 'creator' ) ;
#45 = ORIENTED_EDGE ( 'NONE', *, *, #152, .F. ) ;
#46 = CARTESIAN_POINT ( 'NONE',  ( -24.14999999999999900, 0.0000000000000000000, 3000.000000000000000 ) ) ;
#47 = CARTESIAN_POINT ( 'NONE',  ( 24.14999999999999900, 2.957522019940857900E-015, 3000.000000000000000 ) ) ;
#48 =( NAMED_UNIT ( * ) PLANE_ANGLE_UNIT ( ) SI_UNIT ( $, .RADIAN. ) );
#49 = CARTESIAN_POINT ( 'NONE',  ( 0.0000000000000000000, 0.0000000000000000000, -3000.000000000000000 ) ) ;
#50 = CC_DESIGN_PERSON_AND_ORGANIZATION_ASSIGNMENT ( #176, #44, ( #75 ) ) ;
#51 = VECTOR ( 'NONE', #207, 1000.000000000000000 ) ;
#52 = CALENDAR_DATE ( 2018, 17, 7 ) ;
#53 = ORIENTED_EDGE ( 'NONE', *, *, #145, .F. ) ;
#54 = EDGE_CURVE ( 'NONE', #108, #99, #142, .T. ) ;
#55 = CC_DESIGN_PERSON_AND_ORGANIZATION_ASSIGNMENT ( #156, #116, ( #75 ) ) ;
#56 = EDGE_LOOP ( 'NONE', ( #12, #86 ) ) ;
#57 = ORIENTED_EDGE ( 'NONE', *, *, #213, .F. ) ;
#58 = PERSON_AND_ORGANIZATION ( #217, #93 ) ;
#59 = ORIENTED_EDGE ( 'NONE', *, *, #54, .T. ) ;
#60 = SECURITY_CLASSIFICATION ( '', '', #43 ) ;
#61 = ADVANCED_FACE ( 'NONE', ( #77 ), #209, .T. ) ;
#62 = DIRECTION ( 'NONE',  ( 0.0000000000000000000, 0.0000000000000000000, 1.000000000000000000 ) ) ;
#63 = EDGE_LOOP ( 'NONE', ( #185, #85, #21, #103 ) ) ;
#64 = MANIFOLD_SOLID_BREP ( 'Extrude-Thin1', #11 ) ;
#65 = DATE_AND_TIME ( #130, #110 ) ;
#66 = DIRECTION ( 'NONE',  ( 1.000000000000000000, 0.0000000000000000000, 0.0000000000000000000 ) ) ;
#67 = LINE ( 'NONE', #187, #234 ) ;
#68 = CARTESIAN_POINT ( 'NONE',  ( 19.89999999999999900, 2.437047130303232800E-015, 3000.000000000000000 ) ) ;
#69 = AXIS2_PLACEMENT_3D ( 'NONE', #84, #117, #10 ) ;
#70 = APPROVAL ( #22, 'UNSPECIFIED' ) ;
#71 = CARTESIAN_POINT ( 'NONE',  ( 0.0000000000000000000, 0.0000000000000000000, 0.0000000000000000000 ) ) ;
#72 = CARTESIAN_POINT ( 'NONE',  ( 0.0000000000000000000, 0.0000000000000000000, 3000.000000000000000 ) ) ;
#73 = DIRECTION ( 'NONE',  ( 1.000000000000000000, 0.0000000000000000000, -0.0000000000000000000 ) ) ;
#74 = CIRCLE ( 'NONE', #69, 19.89999999999999900 ) ;
#75 = PRODUCT_DEFINITION_FORMATION_WITH_SPECIFIED_SOURCE ( 'ANY', '', #218, .NOT_KNOWN. ) ;
#76 = CARTESIAN_POINT ( 'NONE',  ( 0.0000000000000000000, 0.0000000000000000000, 3000.000000000000000 ) ) ;
#77 = FACE_OUTER_BOUND ( 'NONE', #236, .T. ) ;
#78 = AXIS2_PLACEMENT_3D ( 'NONE', #8, #175, #66 ) ;
#79 = AXIS2_PLACEMENT_3D ( 'NONE', #140, #30, #9 ) ;
#80 = ORIENTED_EDGE ( 'NONE', *, *, #89, .T. ) ;
#81 = APPROVAL_ROLE ( '' ) ;
#82 = LOCAL_TIME ( 13, 35, 14.00000000000000000, #191 ) ;
#83 = APPLICATION_CONTEXT ( 'configuration controlled 3d designs of mechanical parts and assemblies' ) ;
#84 = CARTESIAN_POINT ( 'NONE',  ( 0.0000000000000000000, 0.0000000000000000000, 3000.000000000000000 ) ) ;
#85 = ORIENTED_EDGE ( 'NONE', *, *, #109, .F. ) ;
#86 = ORIENTED_EDGE ( 'NONE', *, *, #95, .T. ) ;
#87 = CARTESIAN_POINT ( 'NONE',  ( -19.89999999999999900, 0.0000000000000000000, 3000.000000000000000 ) ) ;
#88 = CARTESIAN_POINT ( 'NONE',  ( 0.0000000000000000000, 0.0000000000000000000, -3000.000000000000000 ) ) ;
#89 = EDGE_CURVE ( 'NONE', #166, #4, #26, .T. ) ;
#90 = CC_DESIGN_PERSON_AND_ORGANIZATION_ASSIGNMENT ( #58, #100, ( #60 ) ) ;
#91 = PERSON_AND_ORGANIZATION ( #217, #93 ) ;
#92 = AXIS2_PLACEMENT_3D ( 'NONE', #119, #231, #104 ) ;
#93 = ORGANIZATION ( 'UNSPECIFIED', 'UNSPECIFIED', '' ) ;
#94 = EDGE_LOOP ( 'NONE', ( #45, #155 ) ) ;
#95 = EDGE_CURVE ( 'NONE', #108, #212, #32, .T. ) ;
#96 = AXIS2_PLACEMENT_3D ( 'NONE', #88, #245, #179 ) ;
#97 = FACE_BOUND ( 'NONE', #230, .T. ) ;
#98 = DATE_AND_TIME ( #210, #148 ) ;
#99 = VERTEX_POINT ( 'NONE', #244 ) ;
#100 = PERSON_AND_ORGANIZATION_ROLE ( 'classification_officer' ) ;
#101 = PERSON_AND_ORGANIZATION_ROLE ( 'design_owner' ) ;
#102 = DIRECTION ( 'NONE',  ( -0.0000000000000000000, -0.0000000000000000000, -1.000000000000000000 ) ) ;
#103 = ORIENTED_EDGE ( 'NONE', *, *, #213, .T. ) ;
#104 = DIRECTION ( 'NONE',  ( 1.000000000000000000, 0.0000000000000000000, 0.0000000000000000000 ) ) ;
#105 = ORIENTED_EDGE ( 'NONE', *, *, #122, .T. ) ;
#106 = DATE_AND_TIME ( #52, #126 ) ;
#107 = DIRECTION ( 'NONE',  ( -1.000000000000000000, 0.0000000000000000000, 0.0000000000000000000 ) ) ;
#108 = VERTEX_POINT ( 'NONE', #47 ) ;
#109 = EDGE_CURVE ( 'NONE', #212, #108, #238, .T. ) ;
#110 = LOCAL_TIME ( 13, 35, 14.00000000000000000, #169 ) ;
#111 = VECTOR ( 'NONE', #227, 1000.000000000000000 ) ;
#112 = CARTESIAN_POINT ( 'NONE',  ( -24.14999999999999900, 0.0000000000000000000, 3000.000000000000000 ) ) ;
#113 = DIRECTION ( 'NONE',  ( -0.0000000000000000000, -0.0000000000000000000, -1.000000000000000000 ) ) ;
#114 = DIRECTION ( 'NONE',  ( -1.000000000000000000, 0.0000000000000000000, 0.0000000000000000000 ) ) ;
#115 = FACE_BOUND ( 'NONE', #94, .T. ) ;
#116 = PERSON_AND_ORGANIZATION_ROLE ( 'design_supplier' ) ;
#117 = DIRECTION ( 'NONE',  ( 0.0000000000000000000, 0.0000000000000000000, 1.000000000000000000 ) ) ;
#118 = APPLICATION_CONTEXT ( 'configuration controlled 3d designs of mechanical parts and assemblies' ) ;
#119 = CARTESIAN_POINT ( 'NONE',  ( 0.0000000000000000000, 0.0000000000000000000, -3000.000000000000000 ) ) ;
#120 = APPROVAL_DATE_TIME ( #208, #133 ) ;
#121 = VERTEX_POINT ( 'NONE', #87 ) ;
#122 = EDGE_CURVE ( 'NONE', #121, #128, #67, .T. ) ;
#123 = ADVANCED_BREP_SHAPE_REPRESENTATION ( 'T24010', ( #64, #15 ), #249 ) ;
#124 = DIRECTION ( 'NONE',  ( -0.0000000000000000000, -0.0000000000000000000, -1.000000000000000000 ) ) ;
#125 = CYLINDRICAL_SURFACE ( 'NONE', #79, 19.89999999999999900 ) ;
#126 = LOCAL_TIME ( 13, 35, 14.00000000000000000, #235 ) ;
#127 = CC_DESIGN_APPROVAL ( #133, ( #60 ) ) ;
#128 = VERTEX_POINT ( 'NONE', #31 ) ;
#129 = FACE_OUTER_BOUND ( 'NONE', #172, .T. ) ;
#130 = CALENDAR_DATE ( 2018, 17, 7 ) ;
#131 = PRODUCT_DEFINITION_SHAPE ( 'NONE', 'NONE',  #165 ) ;
#132 = EDGE_CURVE ( 'NONE', #128, #4, #1, .T. ) ;
#133 = APPROVAL ( #159, 'UNSPECIFIED' ) ;
#134 = CYLINDRICAL_SURFACE ( 'NONE', #229, 24.14999999999999900 ) ;
#135 = APPROVAL_ROLE ( '' ) ;
#136 = APPROVAL_PERSON_ORGANIZATION ( #193, #237, #135 ) ;
#137 = VERTEX_POINT ( 'NONE', #199 ) ;
#138 = DIRECTION ( 'NONE',  ( -1.000000000000000000, 0.0000000000000000000, 0.0000000000000000000 ) ) ;
#139 = CC_DESIGN_DATE_AND_TIME_ASSIGNMENT ( #98, #243, ( #60 ) ) ;
#140 = CARTESIAN_POINT ( 'NONE',  ( 0.0000000000000000000, 0.0000000000000000000, 3000.000000000000000 ) ) ;
#141 = CARTESIAN_POINT ( 'NONE',  ( 19.89999999999999900, 2.437047130303232800E-015, 3000.000000000000000 ) ) ;
#142 = LINE ( 'NONE', #178, #5 ) ;
#143 = APPROVAL_PERSON_ORGANIZATION ( #27, #70, #157 ) ;
#144 = ADVANCED_FACE ( 'NONE', ( #163 ), #168, .F. ) ;
#145 = EDGE_CURVE ( 'NONE', #212, #137, #189, .T. ) ;
#146 = AXIS2_PLACEMENT_3D ( 'NONE', #49, #62, #7 ) ;
#147 = FACE_OUTER_BOUND ( 'NONE', #56, .T. ) ;
#148 = LOCAL_TIME ( 13, 35, 14.00000000000000000, #6 ) ;
#149 = ORIENTED_EDGE ( 'NONE', *, *, #95, .F. ) ;
#150 = PRODUCT_RELATED_PRODUCT_CATEGORY ( 'detail', '', ( #218 ) ) ;
#151 = SHAPE_DEFINITION_REPRESENTATION ( #131, #123 ) ;
#152 = EDGE_CURVE ( 'NONE', #121, #166, #174, .T. ) ;
#153 = PLANE ( 'NONE',  #146 ) ;
#154 = EDGE_LOOP ( 'NONE', ( #57, #225 ) ) ;
#155 = ORIENTED_EDGE ( 'NONE', *, *, #19, .F. ) ;
#156 = PERSON_AND_ORGANIZATION ( #217, #93 ) ;
#157 = APPROVAL_ROLE ( '' ) ;
#158 = ORIENTED_EDGE ( 'NONE', *, *, #89, .F. ) ;
#159 = APPROVAL_STATUS ( 'not_yet_approved' ) ;
#160 = DIRECTION ( 'NONE',  ( 1.000000000000000000, 0.0000000000000000000, 0.0000000000000000000 ) ) ;
#161 =( LENGTH_UNIT ( ) NAMED_UNIT ( * ) SI_UNIT ( .MILLI., .METRE. ) );
#162 = ADVANCED_FACE ( 'NONE', ( #18, #97 ), #153, .F. ) ;
#163 = FACE_OUTER_BOUND ( 'NONE', #205, .T. ) ;
#164 = EDGE_CURVE ( 'NONE', #99, #137, #222, .T. ) ;
#165 = PRODUCT_DEFINITION ( 'UNKNOWN', '', #75, #171 ) ;
#166 = VERTEX_POINT ( 'NONE', #68 ) ;
#167 = UNCERTAINTY_MEASURE_WITH_UNIT (LENGTH_MEASURE( 1.000000000000000100E-005 ), #161, 'distance_accuracy_value', 'NONE');
#168 = CYLINDRICAL_SURFACE ( 'NONE', #198, 19.89999999999999900 ) ;
#169 = COORDINATED_UNIVERSAL_TIME_OFFSET ( 0, 0, .AHEAD. ) ;
#170 = DIRECTION ( 'NONE',  ( 1.000000000000000000, 0.0000000000000000000, 0.0000000000000000000 ) ) ;
#171 = DESIGN_CONTEXT ( 'detailed design', #118, 'design' ) ;
#172 = EDGE_LOOP ( 'NONE', ( #158, #194, #105, #25 ) ) ;
#173 = CC_DESIGN_SECURITY_CLASSIFICATION ( #60, ( #75 ) ) ;
#174 = CIRCLE ( 'NONE', #214, 19.89999999999999900 ) ;
#175 = DIRECTION ( 'NONE',  ( 0.0000000000000000000, 0.0000000000000000000, 1.000000000000000000 ) ) ;
#176 = PERSON_AND_ORGANIZATION ( #217, #93 ) ;
#177 = APPLICATION_PROTOCOL_DEFINITION ( 'international standard', 'config_control_design', 1994, #83 ) ;
#178 = CARTESIAN_POINT ( 'NONE',  ( 24.14999999999999900, 2.957522019940857900E-015, 3000.000000000000000 ) ) ;
#179 = DIRECTION ( 'NONE',  ( 1.000000000000000000, 0.0000000000000000000, 0.0000000000000000000 ) ) ;
#180 = DIRECTION ( 'NONE',  ( 0.0000000000000000000, 0.0000000000000000000, 1.000000000000000000 ) ) ;
#181 = AXIS2_PLACEMENT_3D ( 'NONE', #72, #180, #160 ) ;
#182 = CC_DESIGN_PERSON_AND_ORGANIZATION_ASSIGNMENT ( #246, #221, ( #165 ) ) ;
#183 = DIRECTION ( 'NONE',  ( 0.0000000000000000000, 0.0000000000000000000, 1.000000000000000000 ) ) ;
#184 = CARTESIAN_POINT ( 'NONE',  ( 0.0000000000000000000, 0.0000000000000000000, 3000.000000000000000 ) ) ;
#185 = ORIENTED_EDGE ( 'NONE', *, *, #54, .F. ) ;
#186 = AXIS2_PLACEMENT_3D ( 'NONE', #196, #38, #170 ) ;
#187 = CARTESIAN_POINT ( 'NONE',  ( -19.89999999999999900, 0.0000000000000000000, 3000.000000000000000 ) ) ;
#188 = DIRECTION ( 'NONE',  ( 1.000000000000000000, 0.0000000000000000000, 0.0000000000000000000 ) ) ;
#189 = LINE ( 'NONE', #112, #111 ) ;
#190 = ADVANCED_FACE ( 'NONE', ( #147, #115 ), #14, .T. ) ;
#191 = COORDINATED_UNIVERSAL_TIME_OFFSET ( 0, 0, .AHEAD. ) ;
#192 = CIRCLE ( 'NONE', #96, 24.14999999999999900 ) ;
#193 = PERSON_AND_ORGANIZATION ( #217, #93 ) ;
#194 = ORIENTED_EDGE ( 'NONE', *, *, #19, .T. ) ;
#195 = ORIENTED_EDGE ( 'NONE', *, *, #132, .F. ) ;
#196 = CARTESIAN_POINT ( 'NONE',  ( 0.0000000000000000000, 0.0000000000000000000, -3000.000000000000000 ) ) ;
#197 = AXIS2_PLACEMENT_3D ( 'NONE', #184, #232, #201 ) ;
#198 = AXIS2_PLACEMENT_3D ( 'NONE', #239, #40, #107 ) ;
#199 = CARTESIAN_POINT ( 'NONE',  ( -24.14999999999999900, 0.0000000000000000000, -3000.000000000000000 ) ) ;
#200 = CALENDAR_DATE ( 2018, 17, 7 ) ;
#201 = DIRECTION ( 'NONE',  ( 1.000000000000000000, 0.0000000000000000000, 0.0000000000000000000 ) ) ;
#202 = DATE_AND_TIME ( #35, #2 ) ;
#203 = APPROVAL_STATUS ( 'not_yet_approved' ) ;
#204 = CARTESIAN_POINT ( 'NONE',  ( 0.0000000000000000000, 0.0000000000000000000, 3000.000000000000000 ) ) ;
#205 = EDGE_LOOP ( 'NONE', ( #215, #80, #195, #39 ) ) ;
#206 = CARTESIAN_POINT ( 'NONE',  ( 0.0000000000000000000, 0.0000000000000000000, 3000.000000000000000 ) ) ;
#207 = DIRECTION ( 'NONE',  ( -0.0000000000000000000, -0.0000000000000000000, -1.000000000000000000 ) ) ;
#208 = DATE_AND_TIME ( #200, #82 ) ;
#209 = CYLINDRICAL_SURFACE ( 'NONE', #228, 24.14999999999999900 ) ;
#210 = CALENDAR_DATE ( 2018, 17, 7 ) ;
#211 = ORIENTED_EDGE ( 'NONE', *, *, #132, .T. ) ;
#212 = VERTEX_POINT ( 'NONE', #46 ) ;
#213 = EDGE_CURVE ( 'NONE', #137, #99, #192, .T. ) ;
#214 = AXIS2_PLACEMENT_3D ( 'NONE', #76, #3, #188 ) ;
#215 = ORIENTED_EDGE ( 'NONE', *, *, #152, .T. ) ;
#216 = COORDINATED_UNIVERSAL_TIME_OFFSET ( 0, 0, .AHEAD. ) ;
#217 = PERSON ( 'UNSPECIFIED', 'UNSPECIFIED', 'UNSPECIFIED', ('UNSPECIFIED'), ('UNSPECIFIED'), ('UNSPECIFIED') ) ;
#218 = PRODUCT ( 'T24010', 'T24010', '', ( #224 ) ) ;
#219 = APPLICATION_PROTOCOL_DEFINITION ( 'international standard', 'config_control_design', 1994, #118 ) ;
#220 = ADVANCED_FACE ( 'NONE', ( #233 ), #134, .T. ) ;
#221 = PERSON_AND_ORGANIZATION_ROLE ( 'creator' ) ;
#222 = CIRCLE ( 'NONE', #92, 24.14999999999999900 ) ;
#223 = DATE_TIME_ROLE ( 'creation_date' ) ;
#224 = MECHANICAL_CONTEXT ( 'NONE', #83, 'mechanical' ) ;
#225 = ORIENTED_EDGE ( 'NONE', *, *, #164, .F. ) ;
#226 = DIRECTION ( 'NONE',  ( -0.0000000000000000000, -0.0000000000000000000, -1.000000000000000000 ) ) ;
#227 = DIRECTION ( 'NONE',  ( -0.0000000000000000000, -0.0000000000000000000, -1.000000000000000000 ) ) ;
#228 = AXIS2_PLACEMENT_3D ( 'NONE', #41, #113, #114 ) ;
#229 = AXIS2_PLACEMENT_3D ( 'NONE', #204, #226, #138 ) ;
#230 = EDGE_LOOP ( 'NONE', ( #211, #16 ) ) ;
#231 = DIRECTION ( 'NONE',  ( 0.0000000000000000000, 0.0000000000000000000, 1.000000000000000000 ) ) ;
#232 = DIRECTION ( 'NONE',  ( 0.0000000000000000000, 0.0000000000000000000, 1.000000000000000000 ) ) ;
#233 = FACE_OUTER_BOUND ( 'NONE', #63, .T. ) ;
#234 = VECTOR ( 'NONE', #124, 1000.000000000000000 ) ;
#235 = COORDINATED_UNIVERSAL_TIME_OFFSET ( 0, 0, .AHEAD. ) ;
#236 = EDGE_LOOP ( 'NONE', ( #149, #59, #248, #53 ) ) ;
#237 = APPROVAL ( #203, 'UNSPECIFIED' ) ;
#238 = CIRCLE ( 'NONE', #197, 24.14999999999999900 ) ;
#239 = CARTESIAN_POINT ( 'NONE',  ( 0.0000000000000000000, 0.0000000000000000000, 3000.000000000000000 ) ) ;
#240 = CARTESIAN_POINT ( 'NONE',  ( 19.89999999999999900, 2.437047130303232800E-015, -3000.000000000000000 ) ) ;
#241 = APPROVAL_PERSON_ORGANIZATION ( #91, #133, #81 ) ;
#242 = DIRECTION ( 'NONE',  ( 1.000000000000000000, 0.0000000000000000000, 0.0000000000000000000 ) ) ;
#243 = DATE_TIME_ROLE ( 'classification_date' ) ;
#244 = CARTESIAN_POINT ( 'NONE',  ( 24.14999999999999900, 2.957522019940857900E-015, -3000.000000000000000 ) ) ;
#245 = DIRECTION ( 'NONE',  ( 0.0000000000000000000, 0.0000000000000000000, 1.000000000000000000 ) ) ;
#246 = PERSON_AND_ORGANIZATION ( #217, #93 ) ;
#247 = ADVANCED_FACE ( 'NONE', ( #129 ), #125, .F. ) ;
#248 = ORIENTED_EDGE ( 'NONE', *, *, #164, .T. ) ;
#249 =( GEOMETRIC_REPRESENTATION_CONTEXT ( 3 ) GLOBAL_UNCERTAINTY_ASSIGNED_CONTEXT ( ( #167 ) ) GLOBAL_UNIT_ASSIGNED_CONTEXT ( ( #161, #48, #29 ) ) REPRESENTATION_CONTEXT ( 'NONE', 'WORKASPACE' ) );
ENDSEC;
END-ISO-10303-21;
